Welcome, Guest. Please login or register.

Author Topic: I LOVED YESTERDAY Chords & Tabs  (Read 11266 times)

Offline tsunvun86

I LOVED YESTERDAY Chords & Tabs
« on: June 02, 2008, 10:31:31 PM »
Hello all YL guitarists. I'm gonna group all I LOVED YESTERDAY chords and tabs which I have done all in this one thread so that it'll be easier for everyone to go to one place and get everything. I have changed or added some stuff on them, but very minimal,(e.g. OH YEAH solo)
Sooo here goes.. post by post~~

As usual paste the tabs into notepad for better view.

Offline tsunvun86

I LOVED YESTERDAY Chords & Tabs
« Reply #1 on: June 02, 2008, 10:36:53 PM »
01 Laugh Away

Asus2 - x02200
Bsus4/A - x04400
CM7/A - x05500
E7sus4 - x07700
Bsus2 - x24422
C#m - x46654
Ebm - x68876

INTRO:
Asus2 (riff: Asus2 Bsus4/A CM7/A E7sus4)
Asus2 Bsus2 C#m Bsus2 (x2)

VERSE:
E Asus2 C#m Bsus2 (X2)
F# A Bsus2
Bsus2

CHORUS:
Asus2 E Bsus2 C#m (x4)

INSTRUMENTAL:
Asus2 Bsus2 C#m Bsus2

repeat VERSE

CHORUS 2:
Asus2 E Bsus2 C#m (x2)

SOLO:
Dsus2 E
Dsus2 Bsus2

INTERLUDE:
C#m Ebm E F#m (x2)
C#m Ebm F#

CHORUS 3:
Asus2 E Bsus2 C#m (x3)

OUTRO:
Asus2 Bsus2 C#m Bsus2 (x2)
Asus2

Intro/Outro Solo:
------------------------------------------------------------------------------------------------------------------------
------------------------------------------------------------------------------------------------------------------------
-9-11-9h11p9-8-9--9-11-9h11p9-8-9-8--------8-9-9/11-9-8---11-11-9h11p9-8-9--11-11-9h11p9-8-9-8--------8-9-9/11-9-8-9-9--
------------------------------------9-9/11-----------------------------------------------------9-9/11-------------------
------------------------------------------------------------------------------------------------------------------------
------------------------------------------------------------------------------------------------------------------------

Middle Solo:
-----------------------------------------------------------------------------------------------------------------------
-----------------------------------------------------------------------------------------------------------------------
-9-11-9h11p9-8-9--9-11-9h11p9-8-9-8--------8-9-9/11-9-8-9-9------------------------------------------------------------
------------------------------------9-9/11-----------------------------------------------------------------------------
-----------------------------------------------------------------------------------------------------------------------
-----------------------------------------------------------------------------------------------------------------------

Solo:

---------------------------------------------------------------------------------------------------------------------
---------------------------------------------------------------------------------------------------------------------
-------------13b14b13-------13b14b13--------------------------13-14-13h14p13-----------------------------------------
-------11-12----------11-12------------12-11-12-11h12p11--------------------14---------------------------------------
-12-12---------------------------------------------------12-------------------14--12-11-12-11h12p11------------------
----------------------------------------------------------------------------------------------------12-12------------

------------------------------------------------------------------------------------------------------------------
--------------------------------------------------------------------------------------------12----14-14/16--------
-7-7-7--6-6-6--7-7-7/9--9-9-9--9-9-9/11--11-11-11--11-11-11/14--14-14-14--14-14-11--8-9-8------11-----------------
------------------------------------------------------------------------------------------------------------------
-5-5-5--4-4-4--5-5-5/7--7-7-7--7-7-7/9---9--9--9---9--9--9/12---12-12-12--12-12-9---------------------------------
------------------------------------------------------------------------------------------------------------------


Chords & Tabs by,
tsunvun86

Offline tsunvun86

I LOVED YESTERDAY Chords & Tabs
« Reply #2 on: June 02, 2008, 10:37:51 PM »
02 My Generation

Intro:
A E
Bsus2 G# C#m Bsus2

Verse:
A E
Bsus2 G# C#m Bsus2
A E
Bsus2 G# C#m Bsus2

Pre-Chorus:
C#m A E Bsus2 G#
C#m A F#m G#m A Bsus2

CHORUS:
A E
F#m G#m A Bsus2  
A E
F#m G#m A Bsus2  
A E

repeat Verse

repeat Pre-Chorus

repeat Chorus

Solo:
G#m A C#m Bsus2
G#m A Bsus2 G#

Bridge
F#m G#m A C#m
F#m G#m A Bsus2
(B A G#m B )

CHORUS:
A E
F#m G#m A Bsus2  
A E

Outro:
A E x2
A


Intro Solo:

-12---------11---------12------11-----12---------11---------12------11---
-----12-12-----12-12------12-------------12-12-----12-12------12---------
-------------------------------------------------------------------------
-------------------------------------------------------------------------
-------------------------------------------------------------------------
-------------------------------------------------------------------------


-12---------11---------12--------14---------12---------11-------------
-----12-12-----12-12------12-------12-12------12-12------12-----------
----------------------------------------------------------------------
----------------------------------------------------------------------
----------------------------------------------------------------------
----------------------------------------------------------------------


-12---------11---------12------11-----
-----12-12-----12-12------12----------
--------------------------------------
--------------------------------------
--------------------------------------
--------------------------------------


Middle Solo:

-------------------------------------------------------------------------
-------------------------------------------------------------------------
-------------------------------------------------------------------------
----------------------------------------11----/14-14-14-13-14------------
--6-7-6-7-6-7-6----/14-14-12-11--12--14-----------------------14---------
-------------------------------------------------------------------------


----------------------------------------------------------14-------------
------------------------------------------14-12-14-16--12----------------
---------------------13---14-14-14--13-14--------------------------------
-/13-13--13-16-14-16-----------------------------------------------------
-------------------------------------------------------------------------
-------------------------------------------------------------------------


Ending Solo:

-------------------------------------------------------------
-------------------------------------------------------------
------------------7-6--7-6-----------------------------------
---6---7---9-----------------9-7-6b7b6-----------------------
-7---7---7---7---------------------------7-------------------
---------------------------------------------7-5--4b5b4-4----


----------------------------------
----------------------------------
-6h7-6----------------------------
-------9-7-6------6-6b7b6---------
--------------7-9-----------------
----------------------------------


Chords & Tabs by,
tsunvun86

Offline tsunvun86

I LOVED YESTERDAY Chords & Tabs
« Reply #3 on: June 02, 2008, 10:38:16 PM »
03 Find me

Intro:
F#m Dsus2 Asus2
F#m Dsus2 Asus2

Verse:
C#m Asus2 (X2)
B C#m
B E
C#m

Chorus:
A B E C#m (x3)
A B

Instrumental:
A E
A E

Repeat Verse

Repeat Chorus

Solo:
C#m E B A (X2)

Interlude:
G#m C#m Asus2 Bsus2
G#m C#m Asus2 Bsus2
G#

Repeat Chorus

Outro:
A E
A E
A

Intro Solo:

--------------------------------------------------12-----------------------------------------------------12----
------10---12-10-9h10p9---------10---12-10-9h10p9------------10---12-10-9h10p9---------10---12-10-9h10p9-------
---------9--------------9----------9----------------------------9--------------9----------9--------------------
-9h11----------------------9h11-------------------------9h11----------------------9h11-------------------------
---------------------------------------------------------------------------------------------------------------
---------------------------------------------------------------------------------------------------------------

Solo:

--------------7---------7-7--------------------------------------------
----------------------------10-9-10-9h10p9-----------------------------
---/9-8-9-8-9---8-9-8-9--------------------9-9/11-9-8-9-8h9p8----------
--------------------------------------------------------------9--9/11--
-----------------------------------------------------------------------
-----------------------------------------------------------------------

-----------------------------------------------------------
------------------12h14-14-12h14-12-12---------------------
--8-9-/16-14-13------------------------14-13h14p13---------
---------------------------------------------------14-11---
-----------------------------------------------------------
-----------------------------------------------------------


Chords & Tabs by,
tsunvun86

Offline tsunvun86

I LOVED YESTERDAY Chords & Tabs
« Reply #4 on: June 02, 2008, 10:38:37 PM »
04 No way

F - X87565 (played during intro)

Intro:
F
F Bb Dm Bb
F Bb
F Bb
F

Verse:
F
F Bb Dm Bb
F Bb F Bb
F Bb Dm Bb
F Bb F

Gm Bb Gm Eb

Chorus:
F C Dm Bb
F C Gm Bb
F C Dm Bb
F C Gm Bb

Outro:
F Bb
F

Chords by,
tsunvun86

Offline tsunvun86

I LOVED YESTERDAY Chords & Tabs
« Reply #5 on: June 02, 2008, 10:38:55 PM »
05 Namidairo

Em7 - 022030
G6 - 320030
A7sus4 - x02030
Cadd9 - x32030

INTRO:
Em7 G6 A7sus4 Cadd9 x2

VERSE:
Em7 G6 A7sus4 Cadd9 x3
Em7 G6 A7sus4 G

PRE-CHORUS:
C G C Dsus2

CHORUS:
C D Bm Em
Am D Bm G
C D Bm Em
C D

repeat INTRO

repeat VERSE

repeat PRE-CHORUS

CHORUS 2:
C D Bm Em
Am D Bm G
C D Bm Em
C D G G7

INTERLUDE:
C G D Em
C G F D

CHORUS 3:
C D Bm Em
Am D Bm G
C D Bm Em
C D

OUTRO:
G6 Cadd9 G6 Cadd9

Chords by,
tsunvun86

Offline tsunvun86

I LOVED YESTERDAY Chords & Tabs
« Reply #6 on: June 02, 2008, 10:39:26 PM »
06 Daydreamer

C#m7 - x46454
F#5 - xx9(11)(11)xx
E5 - x799xx
Eb5 - x688xx
D5 - x577xx

Intro:
C#m7
A E B C#m (x2)
Asus2

Verse:
E C#m G#m A B (x2)

Pre-Chorus:
A E B

Chorus:
C#m A E B A (x2)
B

Instrumental:
A E B C#m (x2)
Asus2

Repeat Verse

Repeat Pre-Chorus

Repeat Chorus

Riff:
C#m B C#m B

Interlude:
A E A B C#m
A E F# A

F#5 E5 Eb5 D5

Repeat Chorus

Outro:
A E B C#m (x2)
Asus2


Intro/Middle Solo:

--------------------------------------------------------------------------------------------------------------------------
-------------12-12-12-------------12-12-12-------------12-12-12----------12-----------------12-12-12-------------12-12-12-
-------11-11----------------11-11----------------11-11----------------11--------------11-11----------------11-11----------
-14-14----------------14-14----------------13-13----------------13-14-------13--14-14----------------14-14----------------
--------------------------------------------------------------------------------------------------------------------------
--------------------------------------------------------------------------------------------------------------------------


---------------------------11-12-11-------------------------------------------------------
-------------12-12-12-12---12-12-12-12----------------------------------------------------
-------11-11---------------11-11-11----9--------------------------------------------------
-13-13------------------------------------------------------------------------------------
------------------------------------------------------------------------------------------
------------------------------------------------------------------------------------------

Chords & Tabs by,
tsunvun86

Offline tsunvun86

I LOVED YESTERDAY Chords & Tabs
« Reply #7 on: June 02, 2008, 10:39:52 PM »
07 Love is all

D/A - x00232

Intro:
F#m E D/A
F#m E D A
F#m E D

Verse:
F#m D A E (x4)
D E
D E C#

Chorus:
D Dm A (x2)
F#m E D A
F#m E D
E

Instrumental:
F#m E D A
F#m E D

Repeat Verse

Repeat Chorus

Solo:
F#m E D A
F#m E D

Interlude:
B D (X4)
C#

Repeat Chorus

Outro:
F#m E Dsus2 E
F#m E Dsus2

Intro:
-----4-0-------------0----/5-4----5-4---------------------/5-4----5-4---------------------
-----------------------3-------5------5--3--2-2-3--------------5------5--3--2-2-3---------
---2--------4------2-------------------------------2/4-2---------------------------2/4-2--
-4--------2---2--0------------------------------------------------------------------------
------------------------------------------------------------------------------------------
------------------------------------------------------------------------------------------

Instrumental:
-------0--------4------0h2p0--------0--------4-0-------------0------2-
---------0-------------------3--------0------------------------3------
-----2------2/4------2------------2--------2--------4------2------2---
-2/4---------------0---------------------4--------2---2--0------------
--------------------------------0-------------------------------------
----------------------------------------------------------------------

Solo:

-------------------------------------------------9-10-10/16-16-16/17--17/19-17---19-17-19-19b21--19b21b19-16-17-
------10-----10--9-10-10/12-10-9h10p9----9-10/12--------------------------------17------------------------------
----9-------9-------------------------11------------------------------------------------------------------------
-/11-----/11----------------------------------------------------------------------------------------------------
----------------------------------------------------------------------------------------------------------------
----------------------------------------------------------------------------------------------------------------

Outro:
-----0--------0------0--------0--------0--
--------0-----3--------0---------0-----3--
---2-------2--2----1--------2-------2--2--
-4------------0--2--------4------------0--
------------------------------------------
------------------------------------------


Chords & Tab by,
tsunvun86

Offline tsunvun86

I LOVED YESTERDAY Chords & Tabs
« Reply #8 on: June 02, 2008, 10:40:19 PM »
08 I will love you

Intro:
C G
C G D

Verse:
G D Am C
G D Am C D
G D Am C
Em D Cadd9
Cadd9 G/B
Am C

Chorus:
G D/F# Em D
Cadd9 G/B Am Cm
G D/F# Em D
Cadd9 G/B Am D

C

Repeat Verse

Repeat Chorus

Em D

Interlude:
C D Em
D
C D Em (X2)
Am D F
F

Repeat Chorus

Outro:
C G (X2)
D C

Chords by,
tsunvun86

Offline tsunvun86

I LOVED YESTERDAY Chords & Tabs
« Reply #9 on: June 02, 2008, 10:40:38 PM »
10 OH YEAH

Cadd9 - x32033
G/B - x20033
A7sus4 - x02033
Dsus2 - xx0320
Dsus4 - xx0233

Intro:
Cadd9 G/B Cadd9 G/B
Cadd9 G/B A7sus4
D Dsus2 Dsus4 D Dsus2 D

Verse:
G Am C D (x2)
C C7 C C7
G G7 G G7
Bb F D

Chorus:
G Am C D (x4)

Solo:
G Am C D

Repeat Verse

Repeat Chorus

Interlude:
C G Bb F D

Repeat Chorus

Outro:
G Am C D (X2)
Cadd9
Cadd9


Solo:
---------------------------------------------------------------
---------------------------------------------------------------
--------------------------------3b5b3---------5-5/7-5-7b9-7----
------------------------------2-------2---0-4-------------------
----------3-2----------3-2--3-----------3----------------------
-3-0-3--0-----3-0-3--0-----------------------------------------


Chords & Tabs by,
tsunvun86

Offline tsunvun86

I LOVED YESTERDAY Chords & Tabs
« Reply #10 on: June 02, 2008, 10:40:53 PM »
11 My friend

Intro:
F
C G F7 (x2)

Verse:
C G F G (x2)
F G F G7

Chorus 1:
C G F G
Am G Dm G
C G F G
Am G Gm
F G Am
F G F7

Instrumental:
C G F7 (x2)

Repeat Verse
 
Chorus 2:
C G F G
Am G Dm G
C G F G
Am G Gm
Bb C Am D
Bb G

Repeat Chorus 1

Outro:
C G F7 (x2)
C



Chords by,
tsunvun86

Offline tsunvun86

I LOVED YESTERDAY Chords & Tabs
« Reply #11 on: June 02, 2008, 10:41:25 PM »
12 LOVE & TRUTH

Dm7 - xx0211
A7 - x02020
Bbsus2 - x24422
Csus2 - x35533

Intro:
Dm7 A7 C G
Bbsus2 Csus2 Bbsus2 A7

Verse:
Dm C Bb C x2
Bb C x2
A7

Chorus:
Dm A7 C G Bb C A7
Dm A7 C G Bb C

Solo 1:
Dm C Bb
C
Dm C Bb

REPEAT VERSE

REPEAT CHORUS

Bridge:
Gm Am Bb C x2
A7
Dm A7 C G

Solo 2:
Bb C Bb A7

REPEAT CHORUS x2

REPEAT INTRO

Dm

---------
Solo 1:


----------------------------------------------------------------10-------------
-13-----15-----15--15----15---------10-11-10h11p10-----10-11-13----------------
-15b17--17b19------17b19-17b19----------------------12-------------------------
-------------------------------------------------------------------------------
-------------------------------------------------------------------------------
-------------------------------------------------------------------------------


--------10-12-13-12-13-13/15-15--13-12-13--13/17-17-17---15-13h15p13-----------
-----13------------------------------------------------------------------------
--------------------------------------------------------------------------------
--------------------------------------------------------------------------------
--------------------------------------------------------------------------------
--------------------------------------------------------------------------------


Solo 2:

-----------------------------------------------------------------------------
-15b17b15p13-15--------13-13/15-17-18--18\17-17-17-18-17\15-15---------------
-----------------14-15-------------------------------------------------------
-----------------------------------------------------------------------------
-----------------------------------------------------------------------------
-----------------------------------------------------------------------------


------------------------------------17b18-17-----------------------
-15b17-15b17b15p13-15----15-17-18----------------------------------
-----------------------14------------------------------------------
-------------------------------------------------------------------
-------------------------------------------------------------------
-------------------------------------------------------------------


Chords & Tabs by,
tsunvun86

Offline tsunvun86

I LOVED YESTERDAY Chords & Tabs
« Reply #12 on: June 02, 2008, 10:41:41 PM »
13 Am I wrong?

Intro:
F#m Dsus2 Asus2
F#m Dsus2 E

Verse:
Asus2 Dsus2 (x2)
F#m E Dsus2 (x2)
E

Chorus:
Dsus2 Asus2 E F#m
Dsus2 Asus2 E Bm

Instrumental:
F#m Dsus2 Asus2
F#m Dsus2 E

Repeat Verse

Repeat Chorus

Asus2
F#m E Dsus2 (x2)

Solo:
G#m Asus2 E B
G#m Asus2 F#m B

Repeat Chorus

Dsus2 Asus2 E Bm

Outro:
F#m Dsus2 Asus2 (fade away)


Chords by,
tsunvun86

Offline tsunvun86

I LOVED YESTERDAY Chords & Tabs
« Reply #13 on: June 02, 2008, 10:56:46 PM »
09 We will go

Intro:
Dsus2 E (x4)

Verse 1:
Dsus2 E (x4)
Bm Dsus2 G
Dsus2 E (x4)
Bm Dsus2 G
Bm Dsus2 G A

Chorus:
Bm Dsus2 A E (x4)
E

Dsus2 E (x4)

Verse 2:
Dsus2 E (x4)
Bm Dsus2 G
Bm Dsus2 G A

repeat Chorus

G Bm (x3)
E Bm C#

repeat Chorus

Outro:
Dsus2 E (x4)


Chords by,
tsunvun86

Offline sakuraMai

I LOVED YESTERDAY Chords & Tabs
« Reply #14 on: June 03, 2008, 12:12:17 AM »
nice...a compilation of ILY..thanks stephen :suki