Welcome, Guest. Please login or register.

Author Topic: HOW CRAZY YOUR LOVE [Chords & Tabs]  (Read 1277 times)

Offline tsunvun86

HOW CRAZY YOUR LOVE [Chords & Tabs]
« on: October 30, 2011, 12:54:37 PM »
Hi all. I bring you my own transcription of YUI's newest album HOW CRAZY YOUR LOVE!
Happy guitaring~

YUI - HOW CRAZY YOUR LOVE [Chords & Tabs]

01. HELLO
Spoiler for Hiden:
Code: [Select]
YUI - HELLO ~Paradise Kiss~

Intro:
G# Bb (x2)

Verse
G# Bb (x4)

Pre-Chorus:
Cm Bb G# Eb
Cm Bb F Bb

Chorus:
G# Bb Cm Eb (x3)
G# Bb (x2)

*pause*
Bb

repeat Verse

repeat Pre-Chorus

repeat Chorus

Bridge:
Gm G# Cm Bb G# (x2)
Bb

repeat Chorus

Outro:
G# Bb (x5)

Transcribed by,
tsunvun86
02. Separation
Spoiler for Hiden:
Code: [Select]
YUI - Separation

D/F# - 200232

Intro:
Em D C
Am Bm Em D/F#
Am Bm Em D

Verse:
Am Bm Em D (x4)

Pre-Chorus:
Em Am D B
Em Am D C B

Chorus:
Am Bm Em D
Am Bm Em
Am Bm Em D/F#
Am Bm Em

Instrumental:
Am Bm Em D
C Bm Em

Verse 2:
Am Bm Em (x2)

repeat Pre-Chorus

Chorus 2:
Am Bm Em D
Am Bm Em
Am Bm Em D/F#
Am Bm Em D

Am Bm Em
Am D

Bridge:
Cm Dm G (x2)
C B

Chorus 3:
Am Bm Em D (x2)
Am Bm Em D/F#
Am Bm Em D

Outro:
Am Bm Em D(x4)
Am Bm Em D/F# (x2)
Am Bm Em D
Am Bm Em (x2)



Transcribed by,
tsunvun86
03. Get Back Home
Spoiler for Hiden:
Code: [Select]
YUI - Get Back Home

G/B - x20033
Dadd11+(no3) - xx0234

Intro:
C Dm Dadd11+(no3) C
Am Em Dm G

Verse:
C F C C G/B
Am F C C G/B
Am G F C G/B
Am F G G

Chorus:
C G/B Am G
F G C E
C G/B Am G
F G C

Instrumental:
C Dm Dadd11+(no3) C
Am Em Dm G

Verse 2:
C F C C G/B
Am F C C G/B
Am C F C G/B
Am F G G

Chorus 2:
C G/B Am G
F G C E
C Em Am G
F G C

Bridge:
Bb F C C
Bb F G G

repeat Chorus

F G C (x2)

Outro:
C Dm Dadd11+(no3) C
Am Em Dm G
C C


Intro/Instrumental:
 C          Dm      Dadd11+(no3) C     Am        Em        Dm             G
-8--------------1-----4---1-4----0-----8------------------------------------------------
-8--8---8---3-3---3---3-3--------1-----10---10-----8---8------------10-13-12------------
-9----9-----2---------2----------0-----9--9------9---9-9---------10-------12------------
-10---------0---------0----------2-------------------------10/12----------12------------
-10------------------------------3----------------------------------------10------------
-8--------------------------------------------------------------------------------------

Outro:
 C          Dm      Dadd11+(no3) C     Am        Em        Dm             G     C
-8--------------1-----4---1-4----0-----8------------------------------------------------
-8--8---8---3-3---3---3-3--------1-----10---10-----8---8------------10-13-12----5-------
-9----9-----2---------2----------0-----9--9------9---9-9---------10-------12----5-------
-10---------0---------0----------2-------------------------10/12----------12----5-------
-10------------------------------3----------------------------------------10----3-------
-8--------------------------------------------------------------------------------------


Transcribed by,
tsunvun86
04. Lock On
Spoiler for Hiden:
Code: [Select]
YUI - Lock On

Bb/D - x5333x
Eb6 - x68888

Intro/Verse:
F Dm Bb C C# (x2)

Pre-Chorus:
Bb C
C# Eb

Chorus:
B C# Ebm Ebm
B C# Eb Eb
B C# Ebm Ebm
B C# Eb

Instrumental:
B C# Eb Eb
B C# Bb Bb

repeat Verse

repeat Pre-Chorus

repeat Chorus

Instrumental:
B Bb/D Eb
B Bb/D

Bridge:
Am F C D (x3)
C# Eb

repeat Chorus

Outro:
B C# Eb (x2)
Eb6


Transcribed by,
tsunvun86
05. U-niform
Spoiler for Hiden:
Code: [Select]
YUI - U-niform

Dsus2 - xx0230

Intro:
Dsus2 Dsus2 G G (x3)

Verse:
Dsus2 Dsus2 G G (x2)

Pre-Chorus:
Em Em G G A

Chorus:
G Dsus2 (x4)

Instrumental:
Dsus2 Dsus2 G G

repeat Verse

repeat Pre-Chorus

repeat Chorus

Bridge:
G G A
Bm C Dsus2 A
Bm C A A

repeat Chorus

Outro:
Dsus2 Dsus2 G G (x4)
Dsus2


Intro:
Guitar 1
---------------------------------------------------------------------
-8/10----------------------------------------------------------------
-----------9/11------------------------------------------------------
---------------------------------------------------------------------
----------------------5--7--9--7/9--7-5-------5--7--9--7/9--7-5-7/10-
----------------------------------------7----------------------------


Guitar 2
------10-------------------------------------------------------------
-8/10-----------12---------------------------------------------------
-----------9/11-------7-----------------------7-----------------5/7--
-------------------------------5/7--5-4----------------5/7--5-4------
----------------------5-----------------5-----5----------------------
---------------------------------------------------------------------

Instrumental:
Guitar 1
----------------------
----------------------
----------------------
----------------------
-5--7--9--7/9--7-5----
-------------------7--


Guitar 2
----------------------
----------------------
-7--------------------
----------5/7--5-4----
-5-----------------5--
----------------------


Bridge:
------------------------5-5--------------------------------------------------------5-
-10b12b10-8-------------5-5-------------------8-7h8p7----------8-------------------5-
------------7---7-------6-6---7---7-7/9-----9---------9----5h6-----7---7-7/9-----9-6-
--------------8---------7-7-----7-------7h9-------------7------------7-------7h9---7-
------------------8/10--7-7--------------------------------------------------------7-
------------------------5-5--------------------------------------------------------5-


Outro:
Guitar 1
------------------------------------------------
------------------------------------------------
------------------------------------------------
------------------------------------------------ (x2)
-5--7--9--7/9--7-5-------5--7--9--7/9--7-5-7/10-
-------------------7----------------------------


Guitar 2
------------------------------------------------
------------------------------------------------
-7-----------------------7-----------------5/7--
----------5/7--5-4----------------5/7--5-4------ (x2)
-5-----------------5-----5----------------------
------------------------------------------------



Transcribed by,
tsunvun86
06. Cooking
Spoiler for Hiden:
Code: [Select]
YUI - Cooking

Intro:
F G C (x2)

Verse:
F G C (x2)
F G Am C
F G C

Pre-Chorus:
Em F (x2)
Em F G G

Chorus:
F G Em Am
F G Am C
F G Em Am
F G C

Instrumental:
F G C (x2)

repeat Verse

repeat Pre-Chorus

repeat Chorus

Bridge:
Dm Em F Fm
Am G F G
Am G F F G

repeat Chorus (x2)

F G C

Outro:
F G C (x2)
F G Am C
F G C




Transcribed by,
tsunvun86
07. Rain
Spoiler for Hiden:
Code: [Select]
YUI - Rain

Intro:
Am
Dm C Bb C (x2)

Verse:
Dm C Bb C (x2)

Pre-Chorus:
Gm Bb F C
Gm Bb Gm A
Bb C

Chorus:
Bb C Dm F
Gm Am Bb A7
Bb C Dm F
Gm Am Bb C
Dm

repeat Verse

repeat Pre-Chorus

repeat Chorus

Bridge:
Bb
F C
Bb
F A

Solo:
Bb C Dm F
Gm Am Bb A7

repeat Chorus

Outro:
Dm C Bb C
Dm C Bb C
Dm


Intro Solo:
------------------10----------------------------------------8-----
-------10------10-10--10---------------------------------10----10-
-10-12-----12------------12--10-9---10-9-10-10/12-10--10----------
------------------------------------------------------------------
------------------------------------------------------------------
------------------------------------------------------------------

------------------10-------------------------10----10---------------
-------10------10-10--10---------------------10----10---13-13-13-13-
-10-12-----12------------12--10-9---10----10----10------12-12-12-12-
---------------------------------------12---------------------------
--------------------------------------------------------------------
--------------------------------------------------------------------

Pre-Chorus 1:
 Gm           Bb           F            C
-------5-3--------6-6------------1--------------8---------------
---3-------3-----------------1-----1----------------------------
-----3----------7-----7--------2-----2-----9------9-------------
-5------------8---------8--3-----------------10-----10----------
----------------------------------------10----------------------
----------------------------------------------------------------

 Gm           Bb           Gm          
-------5----------6--------------5------------------------------
---3-----3-------------------3-----3----------------------------
-----3-----3----7---7----------3-----3--------------------------
-5--------------------8----5------------------------------------
--------------8---------8---------------------------------------
----------------------------------------------------------------

Lick at the end of first Chorus:
----------------------------------------------------------------
----------------------------------------------------------------
-9b10b9-7-5-----------------------------------------------------
------------7\5-3-----------------------------------------------
-------------------5p3h5----------------------------------------
----------------------------------------------------------------

Pre-Chorus 2:
 Gm           Bb           F            C
-------5----------6-6------------3-1----------------------------
---3-----3-------------------1-------1----5---6p5---------------
-----3-----3----7-----7----2---2------------5-----5-------------
-5------------8---------8---------------5-----------5-----------
----------------------------------------------------------------
----------------------------------------------------------------

 Gm           Bb           Gm          
-------5----------6-6------------5------------------------------
---3-----3-------------------3-----3----------------------------
-----3-----3----7-----7--------3-----3--------------------------
-5----------------------8--5------------------------------------
--------------8-------------------------------------------------
----------------------------------------------------------------

Solo:
-----------------------------------------------12b13--12--10-------------
--------------------11---------------------------------------10-13b15b13-
----9-------9-10-12-----10------9--10--12--10----------------------------
-11---11-12-----------------12-------------------------------------------
-------------------------------------------------------------------------
-------------------------------------------------------------------------

---------------------------15----13----12------------13-------------------
-----------------------/13----13----13----13---13b15----13b15b13-10-------
-/15-x-x-14-x-x-15-17-----------------------------------------------12-10-
--------------------------------------------------------------------------
--------------------------------------------------------------------------
--------------------------------------------------------------------------

----------------------------------------------------------------
----------------------------------------------------------------
-12b14-12-10-9--------------------------------------------------
----------------11----------------------------------------------
----------------------------------------------------------------
----------------------------------------------------------------

Outro Solo:
------------------10----------------------------------------8-----
-------10------10-10--10---------------------------------10----10-
-10-12-----12------------12--10-9---10-9-10-10/12-10--10----------
------------------------------------------------------------------
------------------------------------------------------------------
------------------------------------------------------------------

------------------10-------------------------10-------------------
-------10------10-10--10---------------------10-------13-13-13----
-10-12-----12------------12--10-9---10----10-----10---12-12-12----
---------------------------------------12-------------------------
------------------------------------------------------------------
------------------------------------------------------------------

Transcribed by,
tsunvun86
08. Good night
Spoiler for Hiden:
Code: [Select]
YUI - Good night

DM7 - xx0222

Verse:
DM7 C#7 A F#
Bm C#7 F#m F#
DM7 E A
DM7 C#7 A F#
DM7 C#7 F#m


Transcribed by,
tsunvun86
09. YOU
Spoiler for Hiden:
Code: [Select]
YUI - YOU

Intro:
G A F#m Bm
Em A Bm
G A F#m Bm
Em A D

Verse:
G A D
G A Bm
G A D (x2)

Pre-Chorus:
Bm A G (x2)
A

Chorus:
G A D Bm
G F# Bm A
G A D Bm
G A D

Instrumental:
G A F#m Bm
Em A D

repeat Verse

repeat Pre-Chorus

repeat Chorus

Bridge:
Em F#m G A (x2)

repeat Chorus

G A D

Outro:
G A F#m Bm
Em A Bm
G A F#m Bm
Em A D


Transcribed by,
tsunvun86
10. It's My Life
Spoiler for Hiden:
Code: [Select]
YUI - It's My Life

Bbmaj7 - x13231

Intro:
Bbmaj7
C
F C Bb G
F C Bb C
F Bb C (x4)

Verse:
F Bb C (x4)

Pre-Chorus:
G Bb
G Bb C

Chorus:
F C Bb G (x3)
F C Bb C

Instrumental:
F Bb C (x2)

repeat Verse

repeat Pre-Chorus

repeat Chorus

Bridge:
Dm C Bb F
Dm C Bb
C
C# Eb

repeat Chorus

Outro:
F Bb C (x4)
F


Transcribed by,
tsunvun86
11. no Reason
Spoiler for Hiden:
Code: [Select]
YUI - no Reason

Intro:
D G A A (x2)

Verse:
D Em G A (x2)

Pre-Chorus:
F#m F#m Bm Bm
G G A

Chorus:
D G Bm A (x2)

Instrumental:
D G A A (x2)

repeat Verse

repeat Pre-Chorus

repeat Chorus

Bridge:
D G Bm A (x2)
Em A

Chorus 2:
D G Bm A (x4)

Outro:
D G A A (x2)
G

Intro/Instrumental:
Guitar 1
-----------------------------------------------------------------------------------
-8-10--8--7h8p7--------------------------------7-8--8-10--8--7h8p7-----------------
----------------7-7/9--7-7--7-6-6-6-7-9--9-9-9---------------------7-7/9--7-7------
-----------------------------------------------------------------------------------
-----------------------------------------------------------------------------------
-----------------------------------------------------------------------------------
Guitar 2
-----------------------------------------------------------------------------------
-----------------------------------------------------------------------------------
-9-11--9--7h9p7-------------------------------------7-9--9-11--9--7h9p7------------
----------------7-9/11-9-9--9-7-7-7-9-9/11-11-11-11---------------------7-9/11-9-9-
-----------------------------------------------------------------------------------
-----------------------------------------------------------------------------------
Guitar 3
-----------------------------------------------------------------------------------
-----------------------7-7-5-5-3-3-2-2-------------------------------------7-7-5-5-
-----------------------7-7-6-6-4-4-2-2-------------------------------------7-7-6-6-
-----------------------------------------------------------------------------------
-----------------------------------------------------------------------------------
-----------------------------------------------------------------------------------

_____________________

Guitar 1
---------------------------------------
--------------7-7-7-8--10--14-15-------
-7-6-6-6-7-9---------------------------
---------------------------------------
---------------------------------------
---------------------------------------
Guitar 2
---------------------------------------
---------------------------------------
-----------------7-7-7-9--11--11/12-11-
-9-7-7-7-9-9/11------------------------
---------------------------------------
---------------------------------------
Guitar 3
---------------------------------------
-3-3-2-2-------------------------------
-4-4-2-2-------------------------------
---------------------------------------
---------------------------------------
---------------------------------------

Outro:
Guitar 1
-----------------------------------------------------------------------------------
-8-10--8--7h8p7--------------------------------7-8--8-10--8--7h8p7-----------------
----------------7-7/9--7-7--7-6-6-6-7-9--9-9-9---------------------7-7/9--7-7------
-----------------------------------------------------------------------------------
-----------------------------------------------------------------------------------
-----------------------------------------------------------------------------------
Guitar 2
-----------------------------------------------------------------------------------
-----------------------------------------------------------------------------------
-9-11--9--7h9p7-------------------------------------7-9--9-11--9--7h9p7------------
----------------7-9/11-9-9--9-7-7-7-9-9/11-11-11-11---------------------7-9/11-9-9-
-----------------------------------------------------------------------------------
-----------------------------------------------------------------------------------
Guitar 3
-----------------------------------------------------------------------------------
-----------------------7-7-5-5-3-3-2-2-------------------------------------7-7-5-5-
-----------------------7-7-6-6-4-4-2-2-------------------------------------7-7-6-6-
-----------------------------------------------------------------------------------
-----------------------------------------------------------------------------------
-----------------------------------------------------------------------------------

_____________________

Guitar 1
-------------------------------------------------
--------------7-7-7-8--10--14-14/15--14--12------
-7-6-6-6-7-9-------------------------------------
-------------------------------------------------
-------------------------------------------------
-------------------------------------------------
Guitar 2
-------------------------------------------------
-------------------------------------------------
-----------------7-7-7-9--11--11/12-11--9--10/12-
-9-7-7-7-9-9/11----------------------------------
-------------------------------------------------
-------------------------------------------------
Guitar 3
-------------------------------------------------
-3-3-2-2-----------------------------------------
-4-4-2-2-----------------------------------------
-------------------------------------------------
-------------------------------------------------
-------------------------------------------------


Transcribed by,
tsunvun86
12. Nobody Knows
Spoiler for Hiden:
Code: [Select]
YUI - Nobody Knows

A/C# - x4222x

Intro:
D D D D
D C G G (x2)

Verse:
D C G G (x4)
Bb F C G

Instrumental:
D C G G

Verse 2:
D C G G (x4)
Bb F C G
D

Chorus:
Em7 G D D
Em7 G D A/C# Bm A E G

Instrumental:
D C G G (x2)


repeat Verse 2

repeat Chorus

Solo:
D F G (x2)

Bridge:
Bb7 C7 D D (x2)
Bb7 C7 D

Chorus 2:
Em7 G D D
Em7 G D A/C# Bm A
Em7 G D D
Em7 G D A/C# Bm A E G

Outro:
D C G G (x4)
D


----------------------------------------------------------------------------------------
----------------------------------------------------------------------------------------
----------------------------------------------------------------------------------------
----------------------------------------------------------------------------------------
----------------------------------------------------------------------------------------
----------------------------------------------------------------------------------------

----------------------------------------------------------------------------------------
----------------------------------------------------------------------------------------
----------------------------------------------------------------------------------------
----------------------------------------------------------------------------------------
----------------------------------------------------------------------------------------
----------------------------------------------------------------------------------------

----------------------------------------------------------------------------------------
----------------------------------------------------------------------------------------
----------------------------------------------------------------------------------------
----------------------------------------------------------------------------------------
----------------------------------------------------------------------------------------
----------------------------------------------------------------------------------------

----------------------------------------------------------------------------------------
----------------------------------------------------------------------------------------
----------------------------------------------------------------------------------------
----------------------------------------------------------------------------------------
----------------------------------------------------------------------------------------
----------------------------------------------------------------------------------------


Transcribed by,
tsunvun86
13. Green a.live
Spoiler for Hiden:
Code: [Select]
YUI - Green a.live

Intro:
F#m D A A
F#m D E E

Verse:
A F#m D A (x2)

Pre-Chorus:
D A
D E
C#

Chorus:
F#m D A E (x4)
D

Instrumental:
F#m D A A
F#m D E E

repeat Verse

repeat Pre-Chorus

repeat Chorus

Bridge:
Bm A
Bm D C#

Chorus 2:
F#m D A E (x8)
D

Outro:
F#m D A A
F#m D E E
A

Transcribed by,
tsunvun86

Offline ristinikov

HOW CRAZY YOUR LOVE [Chords & Tabs]
« Reply #1 on: October 30, 2011, 01:19:55 PM »
thanks tsunvun. you're awesome



Offline ShizukaSakura

HOW CRAZY YOUR LOVE [Chords & Tabs]
« Reply #2 on: October 30, 2011, 02:08:40 PM »
:shock
How on earth?

Offline uzy loves YUI

HOW CRAZY YOUR LOVE [Chords & Tabs]
« Reply #3 on: October 30, 2011, 02:48:18 PM »
Thanks tsunvun! Fast as usual!

Offline trekkie

HOW CRAZY YOUR LOVE [Chords & Tabs]
« Reply #4 on: October 30, 2011, 07:26:35 PM »
Thank you very much!

Offline AznGFXboy

HOW CRAZY YOUR LOVE [Chords & Tabs]
« Reply #5 on: October 30, 2011, 07:27:25 PM »
wow, so fast. did you get the album off jpopsuki? apparently, it was leaked already. i'm gonna wait for my copy though.

anyway, thanks as always.
« Last Edit: October 30, 2011, 07:28:06 PM by AznGFXboy »

Offline arnoldonicolas

HOW CRAZY YOUR LOVE [Chords & Tabs]
« Reply #6 on: October 30, 2011, 11:07:34 PM »
Thanks tsun

Offline lindajrina

HOW CRAZY YOUR LOVE [Chords & Tabs]
« Reply #7 on: October 30, 2011, 11:16:54 PM »
Yosh, as expected from the pro...super fast, thanks  :cool

Offline BlueW1nd

HOW CRAZY YOUR LOVE [Chords & Tabs]
« Reply #8 on: October 31, 2011, 12:49:49 AM »
I'm speechless right now.....  :good

Offline L24

HOW CRAZY YOUR LOVE [Chords & Tabs]
« Reply #9 on: October 31, 2011, 05:02:06 AM »
Thanks a lot tsunvun

Offline karisuma

HOW CRAZY YOUR LOVE [Chords & Tabs]
« Reply #10 on: October 31, 2011, 06:10:00 PM »
Ohh. great... thanks for the share... *practicing

Offline UYL

HOW CRAZY YOUR LOVE [Chords & Tabs]
« Reply #11 on: October 31, 2011, 06:20:25 PM »
thanks tsunvun u're d best!

Offline tsunvun86

HOW CRAZY YOUR LOVE [Chords & Tabs]
« Reply #12 on: October 31, 2011, 08:38:03 PM »
Thanks guys :)
Will try to finish up Nobody Knows tab ASAP.

Offline by8n7

HOW CRAZY YOUR LOVE [Chords & Tabs]
« Reply #13 on: November 01, 2011, 07:58:50 AM »
i would like to marry your guitar skills~

Offline AznGFXboy

HOW CRAZY YOUR LOVE [Chords & Tabs]
« Reply #14 on: November 01, 2011, 11:53:52 AM »
btw, was wondering if your going to transcribe Let's face it anytime soon.

oh and uh...this topic should be pinned.
« Last Edit: November 01, 2011, 11:56:41 AM by AznGFXboy »