Welcome, Guest. Please login or register.

Author Topic: HOLIDAYS IN THE SUN Chords & Tabs  (Read 7996 times)

Offline tsunvun86

HOLIDAYS IN THE SUN Chords & Tabs
« on: July 11, 2010, 02:36:22 AM »
Here it is! Hope it helps before any official sheets become available.

As usual paste it into Notepad :) I'll put them as spoilers tags to save space. Jya~~

P.S. Hope I did not make any typos in the tabs especially.......

01 to Mother
Spoiler for Hiden:
YUI - to Mother

Intro:
C G Am G
F G C

Verse:
C G Am G
F G C B7
C E Am G
F G C
Am G F (x2)
G

Chorus:
C G Am G
F G C B7
C G Am G
F G C

Instrumental:
C E Am G
F G C

repeat Verse

repeat Chorus

Instrumental 2:
C G Am G
F G C B7
C G Am G
F G C

Bridge:
Dm Em F G (x2)

repeat Chorus

Outro:
C G Am G
F G C


Chords by,
tsunvun86 @ YUILover Forum & Fansite
02 again
Spoiler for Hiden:
YUI - again

Dsus2 - xx0230
B7 - x24242 / x21202

Intro:
Dsus2

e-0---0-----0-----0------
B--3----3-----3-----3----
G---2-----2-----2-----2--
D------------------------
A------------------------
E------------------------

Em D C B7 (x2)
B7

(intro solo):
e-------------------------------------------------------------------------
B------8-7---------8-7-8/10-8-7---------8-7---------8-7-------------------
G----7-----7-----7--------------8-----7-----7-----7-----8b9b8b9b8b9b8b9b8- (pluck once and bend few times)
D-/9----------/9-------------------/9----------/9-------------------------
A-------------------------------------------------------------------------
E-------------------------------------------------------------------------

Verse:
Em D C (x4)
Em Em Em C D (x2)

Chorus:
C D Em
A B
C D Em
Em B
C D Em
A B
C D

Em

repeat Verse

repeat Chorus

Bridge:
F G Am (x2)
F D

Solo:
Eb F Gm
Eb F D

(solo)
e----------------------------------------------------------------------
B----------------------------------------------------------------------
G-2/8-8-8-8-7-7-7-----8-8-8-7-7-7----------7--7b8b7----/8-8-8-10-10-10-
D-----------------8-8-------------8-8--10------------------------------
A----------------------------------------------------------------------
E----------------------------------------------------------------------

e----------------------------------------------------------------------
B-8-8-10-10-10-11-11-11-13-13--15--13--15b16b15------------------------
G----------------------------------------------------------------------
D----------------------------------------------------------------------
A----------------------------------------------------------------------
E----------------------------------------------------------------------

C D Em (x2)
Em B

repeat Chorus

Outro:
Em D C B7 (x2)
B7
Em

(outro solo):
e-------------------------------------------------------------------------
B------8-7---------8-7-8/10-8-7---------8-7---------8-7-------------------
G----7-----7-----7--------------8-----7-----7-----7-----8b9b8b9b8b9b8b9b8- (pluck once and bend few times)
D-/9----------/9-------------------/9----------/9-------------------------
A-------------------------------------------------------------------------
E-------------------------------------------------------------------------


-------------------------------------------------------------------------------------------------------------------------------

Verse 1:
e-12--12-----12--12----------------------------------------------------
B-12-----12--12-----12-------------------------------------------------
G-12---------12--------12----------------------------------------------
D-14---------14--------------------------------------------------------
A----------------------------------------------------------------------
E----------------------------------------------------------------------

Verse 2:
e-12-----12---------12-----12------------------------------------------
B-12-12-----12------12-12-----12---------------------------------------
G-12-----------12---12-----------12------------------------------------
D-14----------------14-------------------------------------------------
A----------------------------------------------------------------------
E----------------------------------------------------------------------

Chorus:
e-12----10----12-----------------------12----10----10---15-------14-------12-------
B----12----12----12---------10-12-10------12----12---------12-12----12-12------12--
G-------------------------9----------------------------------------------------11--
D---------------------/11----------------------------------------------------------
A----------------------------------------------------------------------------------
E----------------------------------------------------------------------------------

e-12----10----12-----------------------12----10------------------------
B----12----12----12---------10-12-10------12----12---------------------
G-------------------------9--------------------------------------------
D---------------------/11----------------------------------------------
A----------------------------------------------------------------------
E----------------------------------------------------------------------

Bridge:
e------------------------12--------12----------------------------------
B----13--------15-----------12--------12-------------------------------
G-------14--------16--14--------14-------------------------------------
D-15--------17---------------------------------------------------------
A----------------------------------------------------------------------
E----------------------------------------------------------------------

e------------------------12--------12--------------13-13-13-13-13-13-14-
B----13--------15-----------12--------12-----------13-13-13-13-13-13-13-
G-------14--------16--14--------14-------14----/14----------------------
D-15--------17----------------------------------------------------------
A-----------------------------------------------------------------------
E-----------------------------------------------------------------------


Chords & Tabs by,
tsunvun86 @ YUILover Forum & Fansite
03 Parade
Spoiler for Hiden:
YUI - parade

DM7 - XX0222
G - 320003
G7 - 320001

Intro:
DM7 G G7 (x2)

Verse:
DM7 G G7 (x2)
Em G
Em G A

Chorus:
D Em )
G A  } (x2)

Instrumental:
D G (x2)

repeat Verse

repeat Chorus

Instrumental 2:
D G
A

Bridge:
Em G
Em G A

repeat Chorus (x2)

Outro:
DM7 G (x4)
DM7

Chords by,
tsunvun86 @ YUILover Forum & Fansite
04 es.car
Spoiler for Hiden:
YUI - es.car

C#sus4 - x46674

Intro:
C#sus4
C#m B A
F# G#
C#m B A
F# G#

Verse:
C#m A G#m F#m (x2)
A G#m F#m (x2)
G#

Chorus:
C#m B A F#
C#m B A F# G#

Instrumental:
C#m B A
F# G#
C#m B A
F# G#

repeat Verse

repeat Chorus

C#m

Instrumental (Piano Solo):
C#m B A
F# G#
C#m B A

Bridge:
C D Em G (x3)
C A
F#m G#

Chorus 2:
C#m B F# A
C#m B A G#

repeat Chorus

Outro:
C#m B A
F# G#
C#m B A
F# G#
C#m


Intro/Instrumental Solo:
-------------------------------------------
-----------10/12-10-9----------------------
------9---------------11b13b11p9-11--11b13-
-/11----11---------------------------------
-------------------------------------------
-------------------------------------------

-------------------------------------------
-----------10/12-10-9----------------------
------9---------------11b13b11p9-11--9-----
-/11----11---------------------------------
-------------------------------------------
-------------------------------------------

Outro Solo:
----------------------------------------------------------
-----------10/12-10-9-------------------------------------
------9---------------11b13b11p9-11--11b13~~~~-11b13b11-9-
-/11----11------------------------------------------------
----------------------------------------------------------
----------------------------------------------------------

-------------------------------------------
-----------10/12-10-9----------------------
------9---------------11b13b11p9-11b13--9--
-/11----11---------------------------------
-------------------------------------------
-------------------------------------------




Chords & Tabs by,
tsunvun86 @ YUILover Forum & Fansite
05 Shake My Heart
Spoiler for Hiden:
YUI - Shake My Heart

Asus2 - X02200
Bsus4 - X24400
C#m7 - X46600

Intro:
Asus2
E Asus2 Bsus4 E (x2)

Verse:
E Asus2             )
Bsus4 C#m7 Asus2 E  } (x2)
Asus2 Bsus4         )

Pre-Chorus:
C#m7 Bsus4 Asus2 (x2)
Bsus4

Chorus:
E Asus2 Bsus4 E     )
C#m7 Asus2 Bsus4 E  }  (x2)
E Asus2 Bsus4 E (x2)

Verse:
E Asus2
Bsus4 C#m7 Asus2 E
Asus2 Bsus4

repeat Pre-Chorus

Chorus 2:
E Asus2 Bsus4 E     )
C#m7 Asus2 Bsus4 E  }  (x2)
 
Bridge:
D E
D B

repeat Chorus

Outro:
E Asus2 Bsus4 E (x2)
E


Chords by,
tsunvun86 @ YUILover Forum & Fansite
06 GLORIA
Spoiler for Hiden:
YUI - GLORIA

Intro:
F#m D A E (x4)

Verse:
F#m D A E (x4)
D E
D E C#7

Chorus:
F#m D A E (x4)

D E

Instrumental:
F#m D A E (x2)

repeat Verse

repeat Chorus

F#m D A E (x2)

Bridge:
Bm A
Bm D C#7

repeat Chorus (x2)

F#m D A E (x2)

Outro:
F#m D A E (x4)
F#m


Intro/Instrumental/Outro Solo:

---------------------------------
-7-----------------7-------------
----7--6-7-6----------7--6-7-6---  (x2) "Instrumental solo only once"
-------------9-6-9-------------9-
---------------------------------
---------------------------------

Lick before Chorus:

----------------------
----------------------
----------------------  (x2)
----------------------
-------5--------4-7---
-4-5-7------5-7-------

Lick at end of 2nd and 4th Chorus:

Guitar 1:
----------------------------------------------------
-----10h12p10------------10h12p10----------9-x-x-9--
-/11----------11-9---/11----------11-9-----9-x-x-9--
----------------------------------------------------
----------------------------------------------------
----------------------------------------------------
Guitar 2:
---------------9-12--------------------9-12-x-x-----
------7----/10-------12-------7----/10----------12--
----6---7-------------------6---7-------------------
----------------------------------------------------
-/9----------------------/9-------------------------
----------------------------------------------------

Lick at 4th Chorus:

-------------------------------------------------------------------------------------------
-----------------------17b19~~~--------12b14b12p10-------------12b14b12b10----10-12/14-----
---------------------------------------------------11---/9~~---------------11----------11--
-/14b16b14b16b14~~-------------------------------------------------------------------------
-------------------------------------------------------------------------------------------
-------------------------------------------------------------------------------------------


Chords & Tabs by,
tsunvun86 @ YUILover Forum & Fansite
07 I do it
Spoiler for Hiden:
YUI - I do it

Intro:
Gm Bb Eb C (x4)

Verse:
Bb Gm Eb F (x2)
Eb Bb
Eb F D

Chorus:
Gm Bb Eb C (x4)

Instrumental:
Gm Bb Eb C (x2)

repeat Verse

repeat Chorus

Solo:
Gm Bb Eb C (x2)

Bridge:
Eb Dm Cm Dm
Eb F Cm
Eb D

repeat Chorusc

Outro:
Gm Bb Eb C (x4)
Eb F D/F#


Intro/Instrumental Solo:
---------------------------------------------------------------
-----11--11-10-11-13-10-11-------------------------------------
-/10-10--10-10-10-10-10-10-------------------------------------
----------------------------12/13-13-12-12-10-10-8--7--7--8----
---------------------------------------------------------------
----------------------------10/11-11-10-10-8--8--6--5--5--6----

------------------------------------15-------------------------
-11--11-10-11-13-10-11-----------13----13--5--5/13-13----------
-10--10-10-10-10-10-10----/15-15-----------5--5/12-12----------
---------------------------------------------------------------
---------------------------------------------------------------
---------------------------------------------------------------

Solo:                    
                         A.H(artificial harmonics)
------------------------------------------------------------------------
-/15---6---/15---6---/15-15--------13-11--10h11p10----------------------
--------------------------------12-----------------10-10b12-10b12b10-9--
-----------------------------12-----------------------------------------
------------------------------------------------------------------------
------------------------------------------------------------------------

------------------------------------------------------------------------
--------------5---5-3---8--8-10--10-10-11--11-11-11/13------------------
--------------5---5-3---------------------------------------------------
-------3----3-5-3-5-3---5--5-7---7--7--8---8--8--8/10-------------------
-----5-3--5-------------------------------------------------------------
-3-6--------------------------------------------------------------------


Outro Solo:
---------------------------------------------------------------
-----11--11-10-11-13-10-11-------------------------------------
-/10-10--10-10-10-10-10-10-------------------------------------
----------------------------12/13-13-12-12-10-10-8--7--7--8----
---------------------------------------------------------------
----------------------------10/11-11-10-10-8--8--6--5--5--6----

---------------------------------15----------------------------
-11--11-10-11-13-10-11--------13----13--5--5/13-13-------------
-10--10-10-10-10-10-10----/15-----------5--5/12-12-------------
---------------------------------------------------------------
---------------------------------------------------------------
---------------------------------------------------------------

---------------------------------------------------------------
-11--11-10-11-13-10-11-----------------------------------------
-10--10-10-10-10-10-10-----------------------------------------
------------------------12/13-13-12-12-10-10-8--7--7--8--------
---------------------------------------------------------------
------------------------10/11-11-10-10-8--8--6--5--5--6--------

---------------------------------15----------------------------
-11--11-10-11-13-10-11--------13----13--5--5/13-13-------------
-10--10-10-10-10-10-10----/15-----------5--5/12-12-------------
---------------------------------------------------------------
---------------------------------------------------------------
---------------------------------------------------------------

---------------------------------------------------------------
---------------------------------------------------------------
-8-8-8-8--10-10-10-10--11-11-11-11-----------------------------
---------------------------------------------------------------
-6-6-6-6--8--8--8--8---9--9--9--9------------------------------
---------------------------------------------------------------


Chords & Tabs by,
tsunvun86 @ YUILover Forum & Fansite
08 Please Stay With Me
Spoiler for Hiden:
YUI - Please Stay With Me

CM7 - x32000  (C major 7)
GM7 - 320002  (G major 7)

Intro:
CM7 GM7 (x2)

Verse:
CM7 GM7 Am GM7
CM7 GM7 Am D GM7

Pre-Chorus:
Am C Em D C B

Chorus:
C D Bm Em
Am D Bm B7
C D Bm Em
Am D C

Instrumental:
CM7 GM7 (x2)

repeat Verse

repeat Pre-Chorus

repeat Chorus

Bridge:
F#m D (x2)
G
G A B

repeat Chorus (x2)

Outro:
CM7 GM7 (x4)


Chords by,
tsunvun86 @ YUILover Forum & Fansite
09 SUMMER SONG
Spoiler for Hiden:
YUI - SUMMER SONG

**CAPO AT 1ST FRET**

Dsus2 - xx0230
Cadd9/B - x20010
Am7 - x02010
Cadd9 - x32030

Intro:
Dsus2
G C Cadd9/B Am7
G C Cadd9/B Am7
---------------------------------------0---------------0-------------------------0-------------------
-----------3-----------3-----------3-------3---------3--------1-----1----------3--------1-----1------
---------0---0-------0---0-------0---0---0---------0-------------------------0-----------------------
-2-2-0h2-------2-0h2-------2-0h2---------------0h2----------2-----0------0h2----------2-----0--------
----------------------------------------------------------3-----2-----0-------------3-----2-----0----
-----------------------------------------------------------------------------------------------------

Verse:
G Dsus2 Cadd9 (x2)
Em C G Dsus2 (x3)
F Dsus2

-----------------------------0--------------------
-----3-----3-3/5-5-5\3-3--------------------------
-------0h2---2/4---4\2----------------------------
-0h2---------------------0h2----------------------
--------------------------------------------------
--------------------------------------------------

Chorus:
G D Am C (x4)

Dsus2 C Dsus2 C Cadd9/B Am7

-----------0--------------0--------------0-------------------
-------3-----3--------3-----3--------3-----3------1-----1----
-----0---0----------0---0----------0---0---------------------
-0h2------------0h2------------0h2--------------2-----0------
----------------------------------------------3-----2-----0--
-------------------------------------------------------------

repeat Verse

repeat Chorus

Bridge:
Em C G D
Em C D (x3)

----------------------------------------------------
-------0-------0-------0--------------0-------0-----
-----0-------0-------0--------------0-------0-------
-0h2-----0h2-----0h2------0h2---0h2-----0h2---------
----------------------------------------------------
----------------------------------------------------


-----------------------------0--------------------
-----3-----3-3/5-5-5\3-3--------------------------
-------0h2---2/4---4\2----------------------------
-0h2---------------------0h2----------------------
--------------------------------------------------
--------------------------------------------------

repeat Chorus (x2)
G


Chords & Tabs by,
tsunvun86 @ YUILover Forum & Fansite
10 Cinnamon
Spoiler for Hiden:
YUI - Cinnamon

Intro:
G A Bm D (x2)

Verse:
G A Bm D (x4)

Chorus:
G A Bm D (x4)

repeat Verse

repeat Chorus

Bridge:
C G
C Bm

repeat Chorus

Outro:
G A Bm D (x2)
G

Intro Solo:
Guitar 1
------------------------------------------------
-5/7-5-----------------------5/7-5--------------
--------7-6-----4--6-7/2-2----------7-6--6--7---
-------------7----------------------------------
------------------------------------------------
------------------------------------------------
Guitar 2
------------------------------------------------
-9/10-9-7--------------------9/10-9--7------7---
----------9--6-7-----------------------9--9-----
------------------9-11/7-7----------------------
------------------------------------------------
------------------------------------------------

Chords & Tabs by,
tsunvun86 @ YUILover Forum & Fansite
11 Driving Happy Life
Spoiler for Hiden:
YUI - Driving Happy Life

Bsus2 - x24422
Asus2 - x02200
Dsus2 - X57755

Intro:
C#m Bsus2 Asus2 Bsus2
E Asus2 (x3)
Bsus2 Asus2 Bsus2

Verse:
E Asus2 (x3)
Bsus2 Asus2 Bsus2
E Asus2 (x3)
Bsus2 Asus2

Pre-Chorus:
Bsus2 C#m Asus2
Bsus2 C#m Asus2 Bsus2

Chorus:
E Bsus2 C#m Asus2 (x2)
E Asus2 (x2)

Instrumental:
E Asus2
Bsus2 Asus2 Bsus2

Verse 2:
E Asus2 (x3)
Bsus2

repeat Pre-Chorus

repeat Chorus

Bridge:
Asus2 Dsus2 E F#m
Dsus2 Asus2 Bsus2
E F#

Solo:
Bsus2 C#m Asus2
Bsus2 C#m Asus2 Bsus2
Bsus2

Chorus:
E Bsus2 C#m Asus2 (x4)
E Asus2 (x2)

Outro:
E Asus2 (x3)
Bsus2 Asus2 Bsus2
E



Chords by,
tsunvun86 @ YUILover Forum & Fansite
12 It's all too much
Spoiler for Hiden:
YUI - It's all too much

Intro:
Am G F F
Am G F E

---------------------------------------------
---------------------------------------------
--------5--------4-----------2---5---5/7-5-4-
-7--7-7---7--5-5---5--3--3-3---3---3---------
---------------------------------------------
---------------------------------------------

---------------------------------------------
---------------------------------------------
--------5--------4--------2--2/5-4-----------
-7--7-7---7--5-5---5--3-3--------------------
---------------------------------------------
---------------------------------------------


Verse:
Am C Dm G (x2)
Dm C
Dm F E

Chorus:
Am G F C
F C G D
Am G F C
F G Am G

Am G F F
Am G F E

---------------------------------------------
---------------------------------------------
--------5--------4-----------2---5---5/7-5-4-
-7--7-7---7--5-5---5--3--3-3---3---3---------
---------------------------------------------
---------------------------------------------

---------------------------------------------
---------------------------------------------
--------5--------4--------2--2/5-4-----------
-7--7-7---7--5-5---5--3-3--------------------
---------------------------------------------
---------------------------------------------

repeat Verse

repeat Chorus

Solo:
F G Em Am
F G Am

-----------------------------------------------15-13-12---------------------------------
-1/12-12-13-12--------12-13-12--------12-13-12----------13b15~15b13p12--15-12--13p12----
---------------14--14----------12--12------------------------------------------------14-
----------------------------------------------------------------------------------------
----------------------------------------------------------------------------------------
----------------------------------------------------------------------------------------

-----------------------------------------------------------------------------------
-----------------------------------------------------------------------------------
-12-x-x-12/14-14-14-14-12-x-x-12-x-x 12/14-14-14-14-14-17-x-x-16-x-x-14-x-x-12-14--
-----------------------------------------------------------------------------------
-----------------------------------------------------------------------------------
-----------------------------------------------------------------------------------

pick scrape

Bridge:
Bb F Bb F
Gm Am Bb C

repeat Chorus

Outro:
Am G F F
Am G F E
Am

---------------------------------------------
---------------------------------------------
--------5--------4-----------2---5---5/7-5-4-
-7--7-7---7--5-5---5--3--3-3---3---3---------
---------------------------------------------
---------------------------------------------

---------------------------------------------
---------------------------------------------
--------5--------4--------2--2/5-4-----------
-7--7-7---7--5-5---5--3-3--------------------
---------------------------------------------
---------------------------------------------

--------------------------------------------------------------

Riff before chorus:

----------------------------
----------------------------
-12h14p12---7h9p7-----------
-12h14p12---7h9p7-----------
----------------------------
----------------------------

Chords & Tabs by,
tsunvun86 @ YUILover Forum & Fansite
13 Kiss me
Spoiler for Hiden:
YUI - Kiss me

Intro:
F G Am C (x4)

Verse:
F G Am C (x4)

Pre-Chorus:
Am G F F G
Am G F G

Chorus:
F G Am C (x6)

repeat Verse

repeat Pre-Chorus

repeat Chorus

Bridge:
G Am F G
G Am F Fm G
G

repeat Chorus

Outro:
F G Am C (repeat till fade...)


Chords by,
tsunvun86 @ YUILover Forum & Fansite

Offline dso

HOLIDAYS IN THE SUN Chords & Tabs
« Reply #1 on: July 11, 2010, 02:39:12 AM »
OMG... :shock

Offline EugeneAng

HOLIDAYS IN THE SUN Chords & Tabs
« Reply #2 on: July 11, 2010, 02:40:39 AM »
This is..........


Arigatou tsun-sama! =Dp

Offline azmikun

HOLIDAYS IN THE SUN Chords & Tabs
« Reply #3 on: July 11, 2010, 02:41:08 AM »
I have no word...

thanks :good

Offline XxcronoxX

HOLIDAYS IN THE SUN Chords & Tabs
« Reply #4 on: July 11, 2010, 02:58:27 AM »
aww..i was tabbing the songs too..dang it..ur too fast man xD..thanks neways! =D

Offline xhajilour

HOLIDAYS IN THE SUN Chords & Tabs
« Reply #5 on: July 11, 2010, 03:52:32 AM »
so fast. , .

thanks tsunvun86. , .^^

Offline YLenalee

HOLIDAYS IN THE SUN Chords & Tabs
« Reply #6 on: July 11, 2010, 06:49:27 AM »
I don't know what to say ... You're amazing !!
Thank you very very very much !!

Offline akuma_tsubasa

HOLIDAYS IN THE SUN Chords & Tabs
« Reply #7 on: July 11, 2010, 09:31:54 AM »
the album/official score hasn't even come out yet and your done way before it :shock
as expected for Lightning vun-chan :good
« Last Edit: July 11, 2010, 09:32:12 AM by akuma_tsubasa »

Offline uzy loves YUI

HOLIDAYS IN THE SUN Chords & Tabs
« Reply #8 on: July 11, 2010, 10:32:22 AM »
thanks~~ you are awesome!!

Offline GC.

HOLIDAYS IN THE SUN Chords & Tabs
« Reply #9 on: July 11, 2010, 12:07:23 PM »
*speechless*
Time to pull out my guitar and learn some songs.


"昨日を愛せるように今日を生きよう 明日も同じ気持ちでいたいから。"
"In order to love yesterday, let's live today without regrets. I want to live tomorrow with the same feeling as well."

Offline Kikino!

HOLIDAYS IN THE SUN Chords & Tabs
« Reply #10 on: July 11, 2010, 01:46:08 PM »
Pinned for the justice :good

Offline april5490

HOLIDAYS IN THE SUN Chords & Tabs
« Reply #11 on: July 11, 2010, 01:51:44 PM »
woooooowwwwwwww............

Offline reddishlypink

HOLIDAYS IN THE SUN Chords & Tabs
« Reply #12 on: July 11, 2010, 03:21:04 PM »
YEAY!!

You made my day! :'D Thank you !

Offline Kujiro

HOLIDAYS IN THE SUN Chords & Tabs
« Reply #13 on: July 11, 2010, 03:25:05 PM »
So fast. Thank you tsunvun86

Offline tsunvun86

HOLIDAYS IN THE SUN Chords & Tabs
« Reply #14 on: July 11, 2010, 03:45:47 PM »
Thanks guys.
I was checking the chords again and found typos in Driving Happy Life :P
Fixed it.